ISO-10303-21;
HEADER;
FILE_DESCRIPTION (( 'STEP AP203' ),
    '1' );
FILE_NAME ('MQWP-25.4-650.STEP',
    '2020-12-22T09:30:29',
    ( '' ),
    ( '' ),
    'SwSTEP 2.0',
    'SolidWorks 2020',
    '' );
FILE_SCHEMA (( 'CONFIG_CONTROL_DESIGN' ));
ENDSEC;

DATA;
#1 = DIRECTION ( 'NONE',  ( -1.000000000000000000, -0.000000000000000000, -0.000000000000000000 ) ) ;
#2 = VECTOR ( 'NONE', #14, 1000.000000000000000 ) ;
#3 = CC_DESIGN_DATE_AND_TIME_ASSIGNMENT ( #87, #9, ( #129 ) ) ;
#4 = AXIS2_PLACEMENT_3D ( 'NONE', #59, #70, #126 ) ;
#5 = PERSON_AND_ORGANIZATION ( #50, #12 ) ;
#6 = APPROVAL_PERSON_ORGANIZATION ( #67, #154, #62 ) ;
#7 =( LENGTH_UNIT ( ) NAMED_UNIT ( * ) SI_UNIT ( .MILLI., .METRE. ) );
#8 = APPLICATION_CONTEXT ( 'configuration controlled 3d designs of mechanical parts and assemblies' ) ;
#9 = DATE_TIME_ROLE ( 'classification_date' ) ;
#10 = FACE_OUTER_BOUND ( 'NONE', #103, .T. ) ;
#11 = DIRECTION ( 'NONE',  ( 0.000000000000000000, 0.000000000000000000, 1.000000000000000000 ) ) ;
#12 = ORGANIZATION ( 'UNSPECIFIED', 'UNSPECIFIED', '' ) ;
#13 = DIRECTION ( 'NONE',  ( -0.000000000000000000, 0.000000000000000000, 1.000000000000000000 ) ) ;
#14 = DIRECTION ( 'NONE',  ( -1.000000000000000000, -0.000000000000000000, -0.000000000000000000 ) ) ;
#15 = AXIS2_PLACEMENT_3D ( 'NONE', #86, #37, #72 ) ;
#16 = DATE_AND_TIME ( #125, #54 ) ;
#17 = CC_DESIGN_APPROVAL ( #28, ( #129 ) ) ;
#18 = ADVANCED_BREP_SHAPE_REPRESENTATION ( 'MQWP-25.4-650', ( #107, #78 ), #165 ) ;
#19 = EDGE_LOOP ( 'NONE', ( #170, #117 ) ) ;
#20 = AXIS2_PLACEMENT_3D ( 'NONE', #172, #35, #61 ) ;
#21 = SECURITY_CLASSIFICATION_LEVEL ( 'unclassified' ) ;
#22 = DIRECTION ( 'NONE',  ( -1.000000000000000000, -0.000000000000000000, -0.000000000000000000 ) ) ;
#23 = EDGE_CURVE ( 'NONE', #157, #118, #121, .T. ) ;
#24 = ORIENTED_EDGE ( 'NONE', *, *, #23, .F. ) ;
#25 = DIRECTION ( 'NONE',  ( -1.000000000000000000, -0.000000000000000000, -0.000000000000000000 ) ) ;
#26 = AXIS2_PLACEMENT_3D ( 'NONE', #47, #151, #52 ) ;
#27 = COORDINATED_UNIVERSAL_TIME_OFFSET ( 8, 0, .AHEAD. ) ;
#28 = APPROVAL ( #123, 'UNSPECIFIED' ) ;
#29 = AXIS2_PLACEMENT_3D ( 'NONE', #49, #40, #13 ) ;
#30 = DATE_AND_TIME ( #44, #142 ) ;
#31 = EDGE_LOOP ( 'NONE', ( #101, #75 ) ) ;
#32 = APPLICATION_PROTOCOL_DEFINITION ( 'international standard', 'config_control_design', 1994, #8 ) ;
#33 = ORIENTED_EDGE ( 'NONE', *, *, #109, .T. ) ;
#34 = PERSON_AND_ORGANIZATION ( #50, #12 ) ;
#35 = DIRECTION ( 'NONE',  ( 1.000000000000000000, 0.000000000000000000, 0.000000000000000000 ) ) ;
#36 = APPROVAL_DATE_TIME ( #38, #28 ) ;
#37 = DIRECTION ( 'NONE',  ( -1.000000000000000000, -0.000000000000000000, -0.000000000000000000 ) ) ;
#38 = DATE_AND_TIME ( #84, #127 ) ;
#39 = CARTESIAN_POINT ( 'NONE',  ( 0.9999999999999995559, 0.000000000000000000, 3.000000000000000000 ) ) ;
#40 = DIRECTION ( 'NONE',  ( -1.000000000000000000, 0.000000000000000000, -0.000000000000000000 ) ) ;
#41 = PRODUCT_RELATED_PRODUCT_CATEGORY ( 'detail', '', ( #152 ) ) ;
#42 = CIRCLE ( 'NONE', #156, 3.000000000000000000 ) ;
#43 = CC_DESIGN_PERSON_AND_ORGANIZATION_ASSIGNMENT ( #115, #77, ( #152 ) ) ;
#44 = CALENDAR_DATE ( 2020, 22, 12 ) ;
#45 = PERSON_AND_ORGANIZATION ( #50, #12 ) ;
#46 = LOCAL_TIME ( 17, 30, 29.00000000000000000, #150 ) ;
#47 = CARTESIAN_POINT ( 'NONE',  ( 0.9999999999999995559, 0.000000000000000000, 0.000000000000000000 ) ) ;
#48 = PERSON_AND_ORGANIZATION_ROLE ( 'design_supplier' ) ;
#49 = CARTESIAN_POINT ( 'NONE',  ( 0.9999999999999997780, 3.000000000000000000, 0.000000000000000000 ) ) ;
#50 = PERSON ( 'UNSPECIFIED', 'UNSPECIFIED', 'UNSPECIFIED', ('UNSPECIFIED'), ('UNSPECIFIED'), ('UNSPECIFIED') ) ;
#51 = APPROVAL_ROLE ( '' ) ;
#52 = DIRECTION ( 'NONE',  ( 0.000000000000000000, 0.000000000000000000, 1.000000000000000000 ) ) ;
#53 = CARTESIAN_POINT ( 'NONE',  ( 0.9999999999999995559, 0.000000000000000000, 0.000000000000000000 ) ) ;
#54 = LOCAL_TIME ( 17, 30, 29.00000000000000000, #164 ) ;
#55 = ADVANCED_FACE ( 'NONE', ( #122 ), #137, .F. ) ;
#56 = CC_DESIGN_PERSON_AND_ORGANIZATION_ASSIGNMENT ( #68, #58, ( #168 ) ) ;
#57 = ORIENTED_EDGE ( 'NONE', *, *, #175, .T. ) ;
#58 = PERSON_AND_ORGANIZATION_ROLE ( 'creator' ) ;
#59 = CARTESIAN_POINT ( 'NONE',  ( 0.000000000000000000, 0.000000000000000000, 0.000000000000000000 ) ) ;
#60 = PERSON_AND_ORGANIZATION_ROLE ( 'classification_officer' ) ;
#61 = DIRECTION ( 'NONE',  ( 0.000000000000000000, 0.000000000000000000, -1.000000000000000000 ) ) ;
#62 = APPROVAL_ROLE ( '' ) ;
#63 = CYLINDRICAL_SURFACE ( 'NONE', #4, 3.000000000000000000 ) ;
#64 = VECTOR ( 'NONE', #22, 1000.000000000000000 ) ;
#65 = EDGE_LOOP ( 'NONE', ( #57, #110, #148, #79 ) ) ;
#66 = CIRCLE ( 'NONE', #26, 3.000000000000000000 ) ;
#67 = PERSON_AND_ORGANIZATION ( #50, #12 ) ;
#68 = PERSON_AND_ORGANIZATION ( #50, #12 ) ;
#69 =( NAMED_UNIT ( * ) SI_UNIT ( $, .STERADIAN. ) SOLID_ANGLE_UNIT ( ) );
#70 = DIRECTION ( 'NONE',  ( -1.000000000000000000, -0.000000000000000000, -0.000000000000000000 ) ) ;
#71 = LINE ( 'NONE', #160, #2 ) ;
#72 = DIRECTION ( 'NONE',  ( 0.000000000000000000, 0.000000000000000000, 1.000000000000000000 ) ) ;
#73 = ADVANCED_FACE ( 'NONE', ( #106 ), #134, .F. ) ;
#74 = LOCAL_TIME ( 17, 30, 29.00000000000000000, #27 ) ;
#75 = ORIENTED_EDGE ( 'NONE', *, *, #85, .F. ) ;
#76 = APPROVAL_STATUS ( 'not_yet_approved' ) ;
#77 = PERSON_AND_ORGANIZATION_ROLE ( 'design_owner' ) ;
#78 = AXIS2_PLACEMENT_3D ( 'NONE', #169, #82, #100 ) ;
#79 = ORIENTED_EDGE ( 'NONE', *, *, #109, .F. ) ;
#80 = ORIENTED_EDGE ( 'NONE', *, *, #85, .T. ) ;
#81 = APPROVAL_DATE_TIME ( #30, #133 ) ;
#82 = DIRECTION ( 'NONE',  ( 0.000000000000000000, 0.000000000000000000, 1.000000000000000000 ) ) ;
#83 = VERTEX_POINT ( 'NONE', #174 ) ;
#84 = CALENDAR_DATE ( 2020, 22, 12 ) ;
#85 = EDGE_CURVE ( 'NONE', #83, #139, #66, .T. ) ;
#86 = CARTESIAN_POINT ( 'NONE',  ( 2.449293598294706907E-16, 0.000000000000000000, 0.000000000000000000 ) ) ;
#87 = DATE_AND_TIME ( #173, #46 ) ;
#88 = DIRECTION ( 'NONE',  ( 0.000000000000000000, 0.000000000000000000, 1.000000000000000000 ) ) ;
#89 = UNCERTAINTY_MEASURE_WITH_UNIT (LENGTH_MEASURE( 1.000000000000000082E-05 ), #7, 'distance_accuracy_value', 'NONE');
#90 = APPROVAL_PERSON_ORGANIZATION ( #34, #28, #51 ) ;
#91 = PRODUCT_DEFINITION_SHAPE ( 'NONE', 'NONE',  #132 ) ;
#92 = CARTESIAN_POINT ( 'NONE',  ( 0.000000000000000000, 3.673940397442059868E-16, -3.000000000000000000 ) ) ;
#93 = LINE ( 'NONE', #92, #64 ) ;
#94 = PERSON_AND_ORGANIZATION_ROLE ( 'creator' ) ;
#95 = APPROVAL_PERSON_ORGANIZATION ( #5, #133, #114 ) ;
#96 = DATE_AND_TIME ( #128, #74 ) ;
#97 = CIRCLE ( 'NONE', #138, 3.000000000000000000 ) ;
#98 = ADVANCED_FACE ( 'NONE', ( #124 ), #111, .T. ) ;
#99 = CC_DESIGN_APPROVAL ( #154, ( #132 ) ) ;
#100 = DIRECTION ( 'NONE',  ( 1.000000000000000000, 0.000000000000000000, 0.000000000000000000 ) ) ;
#101 = ORIENTED_EDGE ( 'NONE', *, *, #175, .F. ) ;
#102 = PERSON_AND_ORGANIZATION ( #50, #12 ) ;
#103 = EDGE_LOOP ( 'NONE', ( #159, #80, #33, #24 ) ) ;
#104 = CC_DESIGN_SECURITY_CLASSIFICATION ( #129, ( #168 ) ) ;
#105 = CARTESIAN_POINT ( 'NONE',  ( 2.449293598294706907E-16, 0.000000000000000000, 3.000000000000000000 ) ) ;
#106 = FACE_OUTER_BOUND ( 'NONE', #19, .T. ) ;
#107 = MANIFOLD_SOLID_BREP ( 'Ðý×', #146 ) ;
#108 = SHAPE_DEFINITION_REPRESENTATION ( #91, #18 ) ;
#109 = EDGE_CURVE ( 'NONE', #139, #118, #71, .T. ) ;
#110 = ORIENTED_EDGE ( 'NONE', *, *, #143, .T. ) ;
#111 = CYLINDRICAL_SURFACE ( 'NONE', #131, 3.000000000000000000 ) ;
#112 = DESIGN_CONTEXT ( 'detailed design', #135, 'design' ) ;
#113 = CC_DESIGN_APPROVAL ( #133, ( #168 ) ) ;
#114 = APPROVAL_ROLE ( '' ) ;
#115 = PERSON_AND_ORGANIZATION ( #50, #12 ) ;
#116 = CC_DESIGN_PERSON_AND_ORGANIZATION_ASSIGNMENT ( #163, #94, ( #132 ) ) ;
#117 = ORIENTED_EDGE ( 'NONE', *, *, #23, .T. ) ;
#118 = VERTEX_POINT ( 'NONE', #105 ) ;
#119 = CC_DESIGN_PERSON_AND_ORGANIZATION_ASSIGNMENT ( #102, #48, ( #168 ) ) ;
#120 = CARTESIAN_POINT ( 'NONE',  ( 2.449293598294706907E-16, 0.000000000000000000, 0.000000000000000000 ) ) ;
#121 = CIRCLE ( 'NONE', #15, 3.000000000000000000 ) ;
#122 = FACE_OUTER_BOUND ( 'NONE', #31, .T. ) ;
#123 = APPROVAL_STATUS ( 'not_yet_approved' ) ;
#124 = FACE_OUTER_BOUND ( 'NONE', #65, .T. ) ;
#125 = CALENDAR_DATE ( 2020, 22, 12 ) ;
#126 = DIRECTION ( 'NONE',  ( 0.000000000000000000, 0.000000000000000000, 1.000000000000000000 ) ) ;
#127 = LOCAL_TIME ( 17, 30, 29.00000000000000000, #136 ) ;
#128 = CALENDAR_DATE ( 2020, 22, 12 ) ;
#129 = SECURITY_CLASSIFICATION ( '', '', #21 ) ;
#130 = CC_DESIGN_DATE_AND_TIME_ASSIGNMENT ( #96, #144, ( #132 ) ) ;
#131 = AXIS2_PLACEMENT_3D ( 'NONE', #149, #1, #88 ) ;
#132 = PRODUCT_DEFINITION ( 'UNKNOWN', '', #168, #112 ) ;
#133 = APPROVAL ( #76, 'UNSPECIFIED' ) ;
#134 = PLANE ( 'NONE',  #20 ) ;
#135 = APPLICATION_CONTEXT ( 'configuration controlled 3d designs of mechanical parts and assemblies' ) ;
#136 = COORDINATED_UNIVERSAL_TIME_OFFSET ( 8, 0, .AHEAD. ) ;
#137 = PLANE ( 'NONE',  #29 ) ;
#138 = AXIS2_PLACEMENT_3D ( 'NONE', #120, #25, #140 ) ;
#139 = VERTEX_POINT ( 'NONE', #39 ) ;
#140 = DIRECTION ( 'NONE',  ( 0.000000000000000000, 0.000000000000000000, 1.000000000000000000 ) ) ;
#141 = CC_DESIGN_PERSON_AND_ORGANIZATION_ASSIGNMENT ( #45, #60, ( #129 ) ) ;
#142 = LOCAL_TIME ( 17, 30, 29.00000000000000000, #166 ) ;
#143 = EDGE_CURVE ( 'NONE', #83, #157, #93, .T. ) ;
#144 = DATE_TIME_ROLE ( 'creation_date' ) ;
#145 = APPLICATION_PROTOCOL_DEFINITION ( 'international standard', 'config_control_design', 1994, #135 ) ;
#146 = CLOSED_SHELL ( 'NONE', ( #98, #162, #55, #73 ) ) ;
#147 =( NAMED_UNIT ( * ) PLANE_ANGLE_UNIT ( ) SI_UNIT ( $, .RADIAN. ) );
#148 = ORIENTED_EDGE ( 'NONE', *, *, #158, .F. ) ;
#149 = CARTESIAN_POINT ( 'NONE',  ( 0.000000000000000000, 0.000000000000000000, 0.000000000000000000 ) ) ;
#150 = COORDINATED_UNIVERSAL_TIME_OFFSET ( 8, 0, .AHEAD. ) ;
#151 = DIRECTION ( 'NONE',  ( -1.000000000000000000, -0.000000000000000000, -0.000000000000000000 ) ) ;
#152 = PRODUCT ( 'MQWP-25.4-650', 'MQWP-25.4-650', '', ( #155 ) ) ;
#153 = CARTESIAN_POINT ( 'NONE',  ( 2.449293598294706907E-16, 3.673940397442059868E-16, -3.000000000000000000 ) ) ;
#154 = APPROVAL ( #167, 'UNSPECIFIED' ) ;
#155 = MECHANICAL_CONTEXT ( 'NONE', #8, 'mechanical' ) ;
#156 = AXIS2_PLACEMENT_3D ( 'NONE', #53, #171, #11 ) ;
#157 = VERTEX_POINT ( 'NONE', #153 ) ;
#158 = EDGE_CURVE ( 'NONE', #118, #157, #97, .T. ) ;
#159 = ORIENTED_EDGE ( 'NONE', *, *, #143, .F. ) ;
#160 = CARTESIAN_POINT ( 'NONE',  ( 0.000000000000000000, 0.000000000000000000, 3.000000000000000000 ) ) ;
#161 = APPROVAL_DATE_TIME ( #16, #154 ) ;
#162 = ADVANCED_FACE ( 'NONE', ( #10 ), #63, .T. ) ;
#163 = PERSON_AND_ORGANIZATION ( #50, #12 ) ;
#164 = COORDINATED_UNIVERSAL_TIME_OFFSET ( 8, 0, .AHEAD. ) ;
#165 =( GEOMETRIC_REPRESENTATION_CONTEXT ( 3 ) GLOBAL_UNCERTAINTY_ASSIGNED_CONTEXT ( ( #89 ) ) GLOBAL_UNIT_ASSIGNED_CONTEXT ( ( #7, #147, #69 ) ) REPRESENTATION_CONTEXT ( 'NONE', 'WORKASPACE' ) );
#166 = COORDINATED_UNIVERSAL_TIME_OFFSET ( 8, 0, .AHEAD. ) ;
#167 = APPROVAL_STATUS ( 'not_yet_approved' ) ;
#168 = PRODUCT_DEFINITION_FORMATION_WITH_SPECIFIED_SOURCE ( 'ANY', '', #152, .NOT_KNOWN. ) ;
#169 = CARTESIAN_POINT ( 'NONE',  ( 0.000000000000000000, 0.000000000000000000, 0.000000000000000000 ) ) ;
#170 = ORIENTED_EDGE ( 'NONE', *, *, #158, .T. ) ;
#171 = DIRECTION ( 'NONE',  ( -1.000000000000000000, -0.000000000000000000, -0.000000000000000000 ) ) ;
#172 = CARTESIAN_POINT ( 'NONE',  ( 1.224646799147353454E-16, 3.000000000000000000, 0.000000000000000000 ) ) ;
#173 = CALENDAR_DATE ( 2020, 22, 12 ) ;
#174 = CARTESIAN_POINT ( 'NONE',  ( 0.9999999999999995559, 3.673940397442059868E-16, -3.000000000000000000 ) ) ;
#175 = EDGE_CURVE ( 'NONE', #139, #83, #42, .T. ) ;
ENDSEC;
END-ISO-10303-21;
